Higher — The Saturdays

︿
					
						 
D# F Gm A# D

1------------------------------------10--10--10--10-------------------
2-8--8---10---10----11--11---11---11---11--11--11--11-10-10-10-10-----
3--8---8----10---10---12---12---12--12-----------------10--10-10-10---

Verse

1-------------------------------10-10-10-10-------------------
2-8--8--10---10--11--11--11-11----11-11-11-11-10-10-10-10-----
3---8--8---10--10--12--12--12--12---------------10-10-10-10---

2-8-8--10-10-------------------------
3---8-8--10-10--10---10---12--12-----
4------------------12--12---13---13--

Verse 1
          D#      F
I'm doing nothing,
         Gm                                 A#         F
Cause then at least i"m doing nothing wrong. 
                   D#                     F
And i'm gonna stay here on my own
           Gm
And turn off my telephone,
         D#                   F          Gm  D#
If nothing's gained, nothing's won
And you can tell them
Yeah you can say whatever i don't care
Then if you wanna play it cool
           Gm                                     D#         F      A#
Then i got news for you its getting hotter, hotter in here 

Chorus
        D#                                A#
So when i speak listen,this is my my decision
             F                                   Gm         F
And you keep on messing up the words oh oh oh
So when i speak listen cause you keep on pushing
Like i need permission to be heard oh oh oh 
     D#                       A#
I'm gonna lift to lift it higher,
        F                     Gm     F
I'm gonna lift to lift it higher.
       D#                               A#
So when i speak listen this is my decision
          F                                Gm
And you keep on messing up the words.

Verse 2 
I'm getting closer,closer
I'm moving in and yeah i think you know
Cause i Am not gon' say no names
But you and i know who to blame.
So you can tell then,
Yeah you can Go ahead and pull it straight
Cause i Am in this shit myself, and i Do not eed your help
I'm gonna Do this Do it right

Bridge
        D#
I'm gonna lift to lift itWhen you higher,I Go higher
        Gm
I'm gonna lift to lift itYeah you can try but i Go higher
          D#                                                     F
I'm gonna lift to lift itThe only thing boy you can Do is listen so yeah listen

Interlude D# A# F Gm F 
					

The Saturdays - Higher текст и слова песни

Еще песни

MyTexts