Believer — Atomic Kitten

︿
					
						 
D G
 
1 Verse
     Am   
I hear the clock, i hear rain,
         G
I'm all alone
Why i'm i here,and you are there?
I miss you so

Pre-Chorus
   C                       Am           G
I wish that you were here with me
      C                       Am    Bm        C  D
I need to breathe the air you breathe
   D                G               C
Cause your blood in my blood 
             Am
I feel it in my heart
 D            G        C     Am  D
That we'll be together
                  Am          C
And your God is my God
                       Am          D     G   C   Am
Your love has made me a believer

2 Verse 
All though thenight
I stay awake
And think of you 
If love is deep,then it will keep
I know it's true.

Pre-Chorus
I never felt so sure before
But i don't doubt it anymore

Bridge 
    Em                 D
I believer in the way i feel
  Bm                C
i believer our love is real
i believer in the dream we share
I feel it everywhere
I believer in the way we touch
   Bm      C              Am    D
I never felt so much love

Solo G C Am G C Am D

1-------------------------------------------------------20-17----------
2------------------15-17-19-20-17-15--20-17---------18-----------------
3---------------16--------------------------17---17--------------------
4-------12-14-16-------------------------------------------------------
5----10----------------------------------------------------------------
6-10-------------------------------------------------------------------

1---------------------------20-19-------
2----17--19-20---20--15------------15---
3--18----------19-------17--------------

  D             G       C          Am
Your love has made a believer

Outro D G C Am  fade to end 
					

Atomic Kitten - Believer текст и слова песни

Еще песни

MyTexts