Песня

Adele Lovesong
				Capo 8th fret

Intro and verses Guitar Tab:
e|--------------------------------------------------|
B|-----0-0-0----0-0-0------0-0--------------------0-|
G|-----0-0-0----0-0-0------0-0-----4-------4-4--0---|
D|---2-------0-----------------------4-------4-4----|
A|-----------------------3----------------2---------|
E|--------------------------------------------------|

Chorus:
                                        x 3
e|-----------------------------------------------|---------------|
B|-----------------------------------------------|---------------|
G|------0-0-0------0-0-0---0-0-0---0-0-(0------)-|-----0-0-0-----|
D|------2-2-2------2-2-2-2-2-2-2-0-0-0-(0 or 2 )-|-----2-2-2--1--|
A|---3----------0--------------------------------|-3-----------2-|
E|-----------------------------------------------|---------------|

Lyrics:
Whenever I'm alone with you
You make me feel like I am home again
Whenever I'm alone with you
You make me feel like I am whole again
Whenever I'm alone with you
You make me feel like I am young again
Whenever I'm alone with you
You make me feel like I am fun again

However far away I will always love you
However long I stay I will always love you
Whatever words I say I will always love you
I will always love you

Whenever I'm alone with you
You make me feel like I am free again
Whenever I'm alone with you
You make me feel like I am clean again

However far away I will always love you
However long I stay I will always love you
Whatever words I say I will always love you
I will always love you 
			

Adele - Lovesong текст и слова песни

Еще песни

Песни Новое Избранное