Песня

				INTRO:
Electric 1
Clean
E|------------    -----------|
B|------------    -----------|
G|-8----------    -----------|
D|---6-6-5/10- X4 --8-10-6-5-|
A|------------    -----------|
D|------------    -----------|

INTRO (Part 2)
Electric 1
Mild Distortion
E|--------------------------------------------------------------------|
B|--------------------------------------------------------------------|
G|---------15-12-------------15-12---------------------15-12----------|
D|-10-1010-------13b-10-1010-------13-12-13-12-10-1010-------13-13-13-|
A|--------------------------------------------------------------------|
D|--------------------------------------------------------------------|

 ----------------10-10-10-10-10b-|
 ---------13--13-----------------|
 --15--15---12-------------------|
 ----13--------------------------|
 --------------------------------|
 --------------------------------|

Electric 2
Mild Distortion
E|--------------|
B|--------------|
G|--------------|
D|-10--13--6--3-|
A|-10--13--6--3-|
D|-10--13--6--3-|

VERSE:
Electric 2
Mild Distortion
E|--------------|
B|--------------|
G|--------------|
D|--------------|
A|--------------|
D|-10--13--6--3-|
   *   *   *  *

PRE-CHORUS:
Electric 2
Mild Distortion
E|--------------|
B|--------------|
G|--------------|
D|-10-13-6-3-68-|
A|-10-13-6-3-68-|
D|-10-13-6-3-68-|
   *  *  * * **

CHORUS:
Electric 1+2
Mild Distortion
E|---------------------------------------------|
B|---------------------------------------------|
G|---------------------------------------------|
D|-10-10-10-10-13-13-13-151715-6-6-6-6-3-3-3-3-|
A|-10-10-10-10-13-13-13-151715-6-6-6-6-3-3-3-3-|
D|-10-10-10-10-13-13-13-151715-6-6-6-6-3-3-3-3-|
   *  *  *  *  *  *  *  * * *  * * * * * * * *

INTRO (Part 2)

VERSE

then

Electric 2
Mild Distortion
E|------------------------------------------------|
B|------------------------------------------------|
G|------------------------------------------------|
D|------------------------------------------------|
A|-10-1010-17-15-8-6-15-17-15-10-1010-17-15-8-6-3-|
D|-10-1010-17-15-8-6-15-17-15-10-1010-17-15-8-6-3-|

PRE-CHORUS

CHORUS

INTRO (Part 1)

PRE-CHORUS

CHORUS 
			

Imagine Dragons - Curse текст и слова песни

Еще песни

Песни Новое Избранное