Песня

				Intro:
E --0-12--11--7--9--------7-------------0-12--11--7--9--------7-----------|
B ------------------7--9-----9---------------------------7--9-----9-------|
G ------------------------------------------------------------------------|
D ------------------------------------------------------------------------|
A ------------------------------------------------------------------------|
E ------------------------------------------------------------------------|

claps (slightly palm muted)
E --------------------------------------|
B --------------------------------------|
G --------------------------------------|
D ----2---2---2---2---2---2---2---2-----|
A --------------------------------------|
E --------------------------------------|

Riff:    x2
E ---------11----14--11--9-11------------9----7--9h7---------------------|
B ---9--9------9--------9-----------9--9----9-----------7-7h9------------|
G -----------------------------------------------------------------------|
D -----------------------------------------------------------------------|
A -----------------------------------------------------------------------|
E -----------------------------------------------------------------------|

E ---------9-----7---------------------------9-----7---------------------|
B ---9--9-----7-----7--7--7h9----------9--9----7------7--7--7h9----------|
G -----------------------------------------------------------------------|
D -----------------------------------------------------------------------|
A -----------------------------------------------------------------------|
E -----------------------------------------------------------------------|

Verse: (base line turned into power chords)
         E                                           B
E ------------------------------------------------------|
B ------------------------------------------------------|
G ---1--1--1--1--1--1--1-----6--6--6--6--6--6--6--------|
D ---2--2--2--2--2--2--2--0--6--6--6--6--6--6--6--------|
A ---2--2--2--2--2--2--2--0--4--4--4--4--4--4--4--------|
E ---0--0--0--0--0--0--0--0-----------------------------|

             G#
E -----------------------------------------------------------|
B -----------------------------------------------------------|
G -----------------------------------------------------------|
D ---5--6--6--6--6--6--6--6--6--6--6--6--6--6--6--6--6-------|
A ---5--6--6--6--6--6--6--6--6--6--6--6--6--6--6--6--6-------|
E ---3--4--4--4--4--4--4--4--4--4--4--4--4--4--4--4--4-------|

         E                                           B
E ------------------------------------------------------|
B ------------------------------------------------------|
G ---1--1--1--1--1--1--1-----6--6--6--6--6--6--6--------|
D ---2--2--2--2--2--2--2--0--6--6--6--6--6--6--6--------|
A ---2--2--2--2--2--2--2--0--4--4--4--4--4--4--4--------|
E ---0--0--0--0--0--0--0--0-----------------------------|

             G#                                          A
E -----------------------------------------------------------|
B -----------------------------------------------------------|
G -----------------------------------------------------------|
D ---5--6--6--6--6--6--6--6--6--7--7--7--7--7--7--7--7-------|
A ---5--6--6--6--6--6--6--6--6--7--7--7--7--7--7--7--7-------|
E ---3--4--4--4--4--4--4--4--4--5--5--5--5--5--5--5--5-------|

Riff:
E ---------11----14--11--9-11------------9----7--9h7---------------------|
B ---9--9------9--------9-----------9--9----9-----------7-7h9------------|
G -----------------------------------------------------------------------|
D -----------------------------------------------------------------------|
A -----------------------------------------------------------------------|
E -----------------------------------------------------------------------|

E ---------9-----7---------------------------9-----7---------------------|
B ---9--9-----7-----7--7--7h9----------9--9----7------7--7--7h9----------|
G -----------------------------------------------------------------------|
D -----------------------------------------------------------------------|
A -----------------------------------------------------------------------|
E -----------------------------------------------------------------------|

Verse 2:
         E                                           B
E ------------------------------------------------------|
B ------------------------------------------------------|
G ---1--1--1--1--1--1--1-----6--6--6--6--6--6--6--------|
D ---2--2--2--2--2--2--2--0--6--6--6--6--6--6--6--------|
A ---2--2--2--2--2--2--2--0--4--4--4--4--4--4--4--------|
E ---0--0--0--0--0--0--0--0-----------------------------|

             G#
E -----------------------------------------------------------|
B -----------------------------------------------------------|
G -----------------------------------------------------------|
D ---5--6--6--6--6--6--6--6--6--6--6--6--6--6--6--6--6-------|
A ---5--6--6--6--6--6--6--6--6--6--6--6--6--6--6--6--6-------|
E ---3--4--4--4--4--4--4--4--4--4--4--4--4--4--4--4--4-------|

         E                                           B
E ------------------------------------------------------|
B ------------------------------------------------------|
G ---1--1--1--1--1--1--1-----6--6--6--6--6--6--6--------|
D ---2--2--2--2--2--2--2--0--6--6--6--6--6--6--6--------|
A ---2--2--2--2--2--2--2--0--4--4--4--4--4--4--4--------|
E ---0--0--0--0--0--0--0--0-----------------------------|

             G#                                          A
E -----------------------------------------------------------|
B -----------------------------------------------------------|
G -----------------------------------------------------------|
D ---5--6--6--6--6--6--6--6--6--7--7--7--7--7--7--7--7-------|
A ---5--6--6--6--6--6--6--6--6--7--7--7--7--7--7--7--7-------|
E ---3--4--4--4--4--4--4--4--4--5--5--5--5--5--5--5--5-------|

Chorus: Same as verse
         E                                           B
E ------------------------------------------------------|
B ------------------------------------------------------|
G ---1--1--1--1--1--1--1-----6--6--6--6--6--6--6--------|
D ---2--2--2--2--2--2--2--0--6--6--6--6--6--6--6--------|
A ---2--2--2--2--2--2--2--0--4--4--4--4--4--4--4--------|
E ---0--0--0--0--0--0--0--0-----------------------------|

             G#
E -----------------------------------------------------------|
B -----------------------------------------------------------|
G -----------------------------------------------------------|
D ---5--6--6--6--6--6--6--6--6--6--6--6--6--6--6--6--6-------|
A ---5--6--6--6--6--6--6--6--6--6--6--6--6--6--6--6--6-------|
E ---3--4--4--4--4--4--4--4--4--4--4--4--4--4--4--4--4-------|

         E                                           B
E ------------------------------------------------------|
B ------------------------------------------------------|
G ---1--1--1--1--1--1--1-----6--6--6--6--6--6--6--------|
D ---2--2--2--2--2--2--2--0--6--6--6--6--6--6--6--------|
A ---2--2--2--2--2--2--2--0--4--4--4--4--4--4--4--------|
E ---0--0--0--0--0--0--0--0-----------------------------|

             G#                                          A
E -----------------------------------------------------------|
B -----------------------------------------------------------|
G -----------------------------------------------------------|
D ---5--6--6--6--6--6--6--6--6--7--7--7--7--7--7--7--7-------|
A ---5--6--6--6--6--6--6--6--6--7--7--7--7--7--7--7--7-------|
E ---3--4--4--4--4--4--4--4--4--5--5--5--5--5--5--5--5-------|

Bridge:
          B                                       E
E ------------------------------------------------------|
B ------------------------------------------------------|
G ----6---------------------1---------------------------|            x3
D ----6---------------------2---------------------------|
A ----4---------------------2---------------------------|
E ------------------------------------------------------|
          But....                               Both.....

E -------------------------------------------------------------------|
B -------------------------------------------------------------------|
G ----1--1--1--1--1--1--1--------------------------------------------|            x3
D ----2--2--2--2--2--2--2--------------------------------------------|
A ----2--2--2--2--2--2--2--------------------------------------------|
E -------------------------------------------------------------------|

End on the E chord 
			

Imagine Dragons - Amsterdam текст и слова песни

Еще песни

Песни Новое Избранное