My Heart Will Go On — Celine Dion

︿
					
						 
intro:
 distortion/rever
|-12-14-16~~-16p14p12-16-14--12------------|
|-------------------------------16-14~-12~-|
|------------------------------------------|
|------------------------------------------|

arpegio C#m           B            A   B 
|-------4-------------2------------5---7---|
|-------5-------------4------------5---7---|
|-------6-------------4------------6---8---|
|-------6-------------4------------7---9---|
|-------4-------------2------------7---9---|
|----------------------------------5---7---|

|-12-14-16~~-16p14p12-16-14-16-19-21~~-19-14-|
|--------------------------------------------|
|--------------------------------------------|
|--------------------------------------------|

VerseVoice melody:
 |----------------------------|-----------------|
 |--5-55-5-4-5--5-4-5--5-9~-7-|-5-55-5-4-5-5-0--|
 |----------------------------|-----------------|
 |----------------------------|-----------------|
 |----------------------------|-----------------|
 |----------------------------|-----------------|

  C#m        B       A         B
 Every night in my dreams, I see you, I feel you,
 That is how I know you go on.
 Far across the distance, and spaces between us
 You have come to show you go on.

 Chorus
 Near,far...
 |----------------------|----------------------|
 |----------12--10-9----|-9-10-9---------------|
 |-9--11-------------11-|--------11-9-8-9--9---|
 |--------9-------------|--------------------9~|
 |----------------------|----------------------|
 |----------------------|----------------------|
 Once more...
 |----------------------|-----------------------------------|
 |----------12--10-9----|-9-10-9----------------------------|
 |-9--11-------------11-|--------11-9-8-9~-9-8-9~-9/13-11-9-|
 |--------9-------------|-----------------------------------|
 |----------------------|-----------------------------------|
 |----------------------|-----------------------------------|

     E   B     A      B
     Near, far, wherever you are,
       C#m         B       A B
     I believe that the heart does go on.
     E   B      A     B
     Once more, you open the door
             C#m     B
     And you're here in my heart,
        A          C#m B  E
     And my heart will go on and on.

     Love can touch us one time and last for a lifetime,
     And never let go till we're gone.
     Love was when I loved you, one true time I hold to
     In my life we'll always go on.

     Near, far, wherever you are,
     I believe that the heart does go on.
     Once more, you open the door
     And you're here in my heart,
     And my heart will go on and on.

     You're here, there's nothing I fear
     And I know that my heart will go on.
     We'll stay forever this way,
     You are safe in my heart,
     And my heart will go on and on. 
					

Celine Dion - My Heart Will Go On текст и слова песни

Еще песни

MyTexts