Песня

Константин Ступин Анна Каренина
				Intro:
1|----------------------------------------------------------------------------------------------------------------------------------
2|----------------------------------------------------------------------------------------------------------------------------------
3|----------------------------------------------------------------------------------------------------------------------------------
4|----------------------------------------------------------------------------------------------------------------------------------
5|--6-6-7-----------6-6-7-----------6-7-7-----------6-7-7-----------6-6-7-----------6-6-7-----------6-7-7-----------6-7-7-----------
6|--------6-7-7-7-7-------6-7-7-7-7-------6-7-7-7-7-------6-7-7-7-7-------6-7-7-7-7-------6-7-7-7-7-------6-7-7-7-7-------6-7-7-7-7-

куплеты играются на Intro:

Отворились двери и вошла она, 
Ну кто бы мог подумать, до чего же хороша. 

Припев:
Анна Каренина,
Анна Каренина,
Анна Каренина,
Анна Каренина,
G5     A5
Анна - как марихуанна.

Intro: x8
1|------------------
2|------------------
3|------------------
4|------------------
5|--6-6-7-----------
6|--------6-7-7-7-7-

А есть ли сейчас такая девчонка,
Чтоб из-за любви себя, как поросёнка, чтоб как,

Анна Каренина,
Анна Каренина,
Анна Каренина,
Анна Каренина,
G5     A5
Анна - как марихуанна.

C5(VIII)  A5      E5
Кровь и любовь - не вновь.

после этих строк E5 переносится на 5 лад }x2 

C5(VIII) A5 E5

C5(VIII) A5

B5(VII) A#5 B5(VII) A#5 B5(VII) A#5

Intro: x12
1|------------------
2|------------------
3|------------------
4|------------------
5|--6-6-7-----------
6|--------6-7-7-7-7-

Припев:
Анна Каренина,
Анна Каренина,
Анна Каренина,
Анна Каренина,
G5     A5
Анна - как марихуанна.

Intro: x2
1|------------------
2|------------------
3|------------------
4|------------------
5|--6-6-7-----------
6|--------6-7-7-7-7-

C5(VIII)  A5      E5
Кровь и любовь - не вновь.

после этих строк E5 переносится на 5 лад }x2 

Outro: C5(VIII) A5 E5
       C5(VIII) A5
       B5(VII) A#5 B5(VII) A#5 B5(VII) A#5 
			

Константин Ступин - Анна Каренина текст и слова песни

Еще песни

Песни Новое Избранное