Get Back — The Beatles

︿
					
						 

[the intro shows the flavor of the rhythm guitar playing throughout the song]
 
   A
E|-------------------------------------------------|
B|-------------------------------------------------|
G|--X--2--X--2--X--2--X--2--X--2--X--2--X--2--X--2-|
D|--X--2--X--2--X--2--X--2--X--2--X--2--X--2--X--2-|
A|--X--0--X--2--X--2--X--2--X--2--X--2--X--2--X--2-|
E|-------------------------------------------------|

                      G/A D/A A
E|--------------5--5--3---2--0-------------|
B|--------------2--2--0---3--2-------------|
G|--X--2--X--2--X--2--X--2--2--2--0---2--2-|
D|--X--2--X--2--X--2--X--2--------2---0--2-|
A|--X--0--X--2--X--2--X--2--------0---0--0-|
E|-----------------------------------------|

Verse:
[the remainder of the tab is for the lead guitar]
   A
E|---------------------------------------------|
B|---------------------------------------------|
G|---------------------------------------------|
D|---------------------------------------------|
A|--7----9-----7---9----7---------9-----7----9-|
E|--5----5-----5---5----5---------5-----5----5-|
  Jojo was a man who thought he was a loner

   D                A
E|-------------------------------12----------------------|
B|------------------10--12b14------b1412--10------10-|
G|-------------/11--------------------------------11-----|
D|--7------9-------7---9---------------------------------|
A|--5------5-------5---5---------------------------------|
E|-------------------------------------------------------|
  But he knew it couldn't last

   A
E|-------------------------------------------|
B|-------------------------------------------|
G|-------------------------------------------|
D|-------------------------------------------|
A|--7----9--------7---9----7-----9----7----9-|
E|--5----5--------5---5----5-----5----5----5-|
  Jojo left his home in Tucson Ari zona

   D                A
E|------------------------------12----------------------|
B|-----------------10--12b14------b1412--10------10-|
G|------------/11--------------------------------11-----|
D|--7---------9---7---9---------------------------------|
A|--5---------5---5---5---------------------------------|
E|------------------------------------------------------|
 For some Cali fornia grass Get back

     A
E|-----9--9--9--9--9-------------9--9--9--9--9---|
B|-----8--8--8--8--8-------------8--8--8--8--8---|
G|-----9--9--9--9--9-------------9--9--9--9--9---|
D|--7-------------------------7------------------|
A|--------7--9----------------------7--9---------|
E|----/9------------------------/9---------------|
 Get Back Get Back

     D7         A       G/A   D/A  A
E|-----8--8--8--8--8---------------9--9--9--9--9-|
B|-----7--7--7--7--7---------------8--8--8--8--8-|
G|-----7--7--7--7--7---------------9--9--9--9--9-|
D|--7---------------------------7----------------|
A|--------7--9------------------------7--9-------|
E|----/9--------------------------/9-------------|
  to where you once be long Get back

     A
E|-----9--9--9--9--9---------------9--9--9--9--9-|
B|-----8--8--8--8--8---------------8--8--8--8--8-|
G|-----9--9--9--9--9---------------9--9--9--9--9-|
D|--7---------------------------7----------------|
A|--------7--9------------------------7--9-------|
E|----/9--------------------------/9-------------|
 Get Back Get Back

     D7                 A
E|-----8--8--8--8--8---------------9--9--9--9--9-|
B|-----7--7--7--7--7---------------8--8--8--8--8-|
G|-----7--7--7--7--7---------------9--9--9--9--9-|
D|--7---------------------------7----------------|
A|--------7--9------------------------7--9-------|
E|----/9--------------------------/9-------------|
  to where you once  be long


Guitar Lead:
   A
E|--------------------12------------------------------|
B|-------10--10--10--12--12b14------b1412--10-----|
G|--/11--------------------------------------------11-|
D|----------------------------------------------------|
A|----------------------------------------------------|
E|----------------------------------------------------|

  D       A       G  D
E|-------------------------------|
B|-------------------------------|
G|-7-----------------------------|
D|-------7--9-----10--7--10b11-|
A|----9--------------------------|
E|-------------------------------|

   A
E|--------------------12--------------------------------|
B|-------10--10--10--12--12b14----b1412--10------10-|
G|--/11------------------------------------------11-----|
D|------------------------------------------------------|
A|------------------------------------------------------|
E|------------------------------------------------------|

    D             A          G        D
E|------------------------------------------------------|
B|----------------8--5----------------------------------|
G|--7----------------------5--7b9--5-----5------------|
D|-------7--10-----10--7--10--------7---------------7---|
A|----9-------------------------------------------------|
E|------------------------------------------------------|

The rest of the song builds off these ideas. Once you can play the above, you'll be able to feel the small changes from verse to verse, lead to lead. 
					

The Beatles - Get Back текст и слова песни

Еще песни

MyTexts