Песня

				Tuning: F (FA#D#G#Cf, or Capo 1)

Verses:
        C        C         F         F
f |---------------------------------------------------------------------------|
C |-------1-------1---------1---------1---------------------------------------|
G#|-----0-------0---------2---------2-----------------------------------------|
D#|----2-2-----2-2-------3-3-------3-3----------------------------------------|
A#|---3-------3---------0---------0-------------------------------------------|
F |---------------------------------------------------------------------------|

Bridge:
         Am       C        Am       
f |--------------------------------7------------------------------------------|
C |-------1-------1---------1------7------------------------------------------|
G#|-----2-------0---------2--------7------------------------------------------|
D#|----2-2-----2-2-------2-2-------7------------------------------------------|
A#|---0-------3---------0----------7------------------------------------------|
F |---------------------------------------------------------------------------|
                                   ^
                       For these notes, you are going
                       to play the top of the 7th fret
                       to create a harmonic ringing
                       sound. lightly cover the strings
                       with your finger but DON'T press
                       down.

For the chorus, it is just single strummed chords, as followed:

 C        G         F                                    
Again, my friend, I know it's been a while 
Am      G      F
since i could look you in the eyes
         C                G          F               
Cuz I Am foolish, and i'm sorry, but sorry 
         Am         G  F
never made it feel alright, alright 
			

Imagine Dragons - 30 Lives текст и слова песни

Еще песни

Песни Новое Избранное