Песня

Green Day Drama Queen
				Intro: C  C/B  Am  Am/G   F   G 

 C           C/B     Am   Am/G 
  She is my drama queen
 F                     G 
  She is so wild and reckless
 C           C/B    Am   Am/G 
  She is my drama queen
 F                       G 
  She dangles from her necklace

 Am        Am/G    F        (G)
  Daddy's little bundle of joy
 Am        Am/G  F# 
  Out of a magazine
 C           C/B   Am   Am/G 
  Everyones drama queen
 F          G         C 
  is old enough to bleed now

 C          C/B    Am    Am/G 
  She is my drama queen
 F                     G 
  Her life has now unfolded
 C               C/B    Am    Am/G 
  There goes my drama queen
 F                          G 
  What do you think she's holding?
 C            C/B   Am  Am/G 
  Hey little drama queen
 F                        G 
  Well did syou find her savior?
 C          C/B     Am   Am/G 
  Ho little drama queen
 F                    G 
  you better call a lawyer

 Am        Am/G    F       (G)
  Daddy's little bundle of joy
 Am     Am/G     F# 
  Out of a magazine
 C              C/B   Am   Am/G 
  Everyones my drama queen
 F      G         C 
  is enough to bleed now

C  C/B  Am  Am/G  |
F  G              | x2

Guitar Solo:
         Am             Am/G         F           (G)
e|-------------------------------------------------|
B|------10-/10--/10----/10-8-----------------------|
G|---/9----------------------9-/9---/9-7-----------|
D|---------------------------------------10-7-7~---|
A|-------------------------------------------------|
E|-------------------------------------------------|

            Am          Am/G                F#
e|---------------------8--10^12-10p8-----------|
B|------10--/10--/10-----------------10--7~----|
G|---/9----------------------------------------|
D|---------------------------------------------|
A|---------------------------------------------|
E|---------------------------------------------|

C  C/B  Am  Am/G | F  G 

 C            C/B    Am    Am/G  
  Hey little drama queen
F                           G    
  From New York to San Francisco
 C            C/B    Am    Am/G 
  Everyones Drama Queen
 F                      G  
  I think She's going psych

 Am        Am/G    F       (G)
  Daddy's little bundle of joy
 Am     Am/G     F# 
  Out of a magazine
 C              C/B   Am   Am/G 
  Everyones my drama queen
 F      G         C 
  is enough to bleed now
 F              G        C 
  she's old enough to bleed now
 F              G        C 
  she's old enough to bleed now. 
			

Green Day - Drama Queen текст и слова песни

Еще песни

Песни Новое Избранное