Песня

Queen We Will Rock You
				Chords: Em G D Asus4
E----------------------------------------------------------------
B----------------------------------------------------------------
G------------5-----------------------9---------------------------
D------------5-----------------------9---------------------------
A------------3-----------------------8---------------------------
E----------------------------------------------------------------
We will, we will rock you…           ^SUSTAIN

E-----------------------------------------------------------------
B-----------------------------------------------------------------
G------------5----5------------2-----2-------2-----2--------------
D------------5----5------------2-----2-------2-----2--------------
A------------3----3------------0-----0-------0-----0--------------
E---------------------------------3-------------3-----------------
               PM

E-----------------------------------------------------------------
B----14---14h15----15p14-------14-14--15---14--15p14h15p14--------
G----14---14-------14----------14-14--14---14--14------------14---
D----14---14h16----16p14-------14-14--16---14--16p14h16p14---14---
A----0-------------------------0-----------------------------0----
E-----------------------------------------------------------------

E----17p15--14---------------------------------------------------
B----------------17---15p14------15----15--15p14-----------------
G----------------------------14------------------16p14-----------
D----------------------------16----------------------------------
A----------------------------------------------------------------
E----------------------------------------------------------------

E-----------------------------------------------------------------
B----17--17-14---17b19--19r17---14-------------------14---14h15---
G------------------------------------16b18--r16p14---14---14------
D----------------------------------------------------14---14h16---
A----------------------------------------------------0------------
E-----------------------------------------------------------------

E-----------------------------------------------------------------
B---15p14----------14-----15p14--15p14--14-14-----15----14--------
G---14-------------14-----14-----14-----14-14-----14----14--------
D---16p14----------14-----16p14--16p14--14-14-----16----14--------
A------------------0----------------------------------------------
E----------------------------------------------------------------- 
			

Queen - We Will Rock You текст и слова песни

Еще песни

Песни Новое Избранное