Песня

Unseen Countdown
				verse
--------------------------------------------------------------------------
--------------------------------------------------------------------------
-------97-7--------------------------------------------------------------
-7-7---97-7--------------------------------------------------------------
-7-7---75-5--------------------------------------------------------------
-5-5----------------------------------------------------------------------
chorus
--------------------------------------------------------------------------
--------------------------------------------------------------------------
-----9---7---5------------------------------------------------------------
-7---9---7---5------------------------------------------------------------
-7---7---5---3------------------------------------------------------------
-5------------------------------------------------------------------------ 
			

Unseen - Countdown текст и слова песни

Еще песни

Песни Новое Избранное