Песня

Queen One Vision
				Intro: 
  E--2-2--2-2-2--2-3-3--3-3-3--3-5-5--5-5-5--5-3-3--3-0-0--0 
  B--3-3--3-3-3--3-3-3--3-3-3--3-3-3--3-3-3--3-3-3--3-3-3--3 
  G--2-2--2-2-2--2-4-4--4-4-4--4-5-5--5-5-5--5-4-4--4-0-0--0 
  D--0-0--0-0-0--0-0-0--0-0-0--0-0-0--0-0-0--0-0-0--0-0-0--0 
 
 Repeat this line once, then :  
  E--10-10--10-10-10--10-12-12--12-12-12--12-13------12----- 
  B--11-11--11-11-11--11-13-13--13-13-13--13-15------15----- 
  G--10-10--10-10-10--10-12-12--12-12-12--12-15------15----- 
  D--0--0--------------------------------------------------- 
 
 Then the main guitar riff starts: 
  B--7-sl----5--7-7-sl----3--5-5-sl----3--5-5---5--7--5- 
  G--7-sl----6--7-7-sl----4--5-5-sl----4--5-5---6--7--6- 
  D--7-sl----7--7-7-sl----5--5-5-sl----5--5-5---7--7--7- 
  A--5-sl----4--5-5-sl----2--3-3-sl----2--3-3---4--5--4- 
  This repeats quite a few times 
 
  A               D/A 
  One flesh one bone one true religion  
  A               D/A 
  One voice one hope one real decision 
  C         Csus4      C 
  wo-oo-oo-oo-oo-oo   give me one vision 
 
A5  Bb5 B5 C5 C#5 
 
 then back to the riff 
 The intro chords come in again over the middle 8 
 After that it`s just repeats of the different sections 
			

Queen - One Vision текст и слова песни

Еще песни

Песни Новое Избранное