Angie (crd) — Rolling Stones

︿
					
						 
 intro:
 
 Harmonics  Am                      E
 
 |--------|--0---0---3^0----------|--------0-----------------------|
 |--------|--1---1---1------------|------0---0--------0------------|
 |--------|--2---2---2------------|----1-------1---1--1------------|
 |--------|--2---2---2------------|--------------2-2---------------|
 |--12----|-----------------------|--------------------------------|
 |--------|-----------------------|-0------------------------------|
 
 
   G                 F              F               C
 
 |---------3---------1-1----------|-1---------1--------------------|
 |-------3---3-------1-1----------|---1----------------------------|
 |-----5-------5-----3-2----------|--------2----------0-0----------|
 |-5-------------5---3-3----------|------3------------3-2----------|
 |--------------------------------|-----------------3--------------|
 |--------------------------------|--------------------------------|
 
 
   Em7           Am
 
 |--------------------------------|--------------------------------|
 |-------0-------0^1--------------|--------------------------------|
 |---------0-----2----------------|--------------------------------|
 |----0----------2----------------|--------------------------------|
 |--2------------0----------------|--------------------------------|
 |--------------------------------|--------------------------------|
 
 
 Am     E7
 
 Angie, Angie
 
 G?              F? F      F C G C
 
 When will those clouds all disappear?
 
 Am     E7
 
 Angie, Angie
 
 G?              F? F      F C G C
 
 Where were the ladies from here?
 
 
 
  G
 
 With no loving in our souls
 
        Dm               Am
 
 and no money in our coats
 
 C               F                 G
 
  Oh you can`t say we`re satisfied 
 
 
 
 Am     E7
 
 Angie, Angie
 
 G?              F? F      F C G C
 
  Oh you can`t say we never tried 
 
 
 
 Uh Angie, you`re beautiful...yes
 
  but ain`t it time we said goodbye 
 
 Angie, I still love you
 
 Remember all those nights we cried
 
 
 
  All the dreams we held so close
 
 Seem to all go up in smoke
 
 Oh let me whisper in your ear 
 
 
 
 Angie, Angie        { 
					

Rolling Stones - Angie (crd) текст и слова песни

Еще песни

MyTexts