Песня

				#----------------------------------PLEASE NOTE---------------------------------#
#This file is the author's own work and represents their interpretation of the #
#song. You may only use this file for private study, scholarship, or research. #
#------------------------------------------------------------------------------#

BRAN-NEW LOVESONG (INSTRUMENTAL)
As recorded by The Pillows



Transcribed by Froliscious

 

 This is my favorite pillows song to play, it's always appropriate.  These are
just the chords, I'm sure you all can figure out the strumming patterns by
listening to the song.  


 4/4
  Gtr I
|-^3---------3-------0---0---0---3-------0---0-|
|-^0---------3---4---0---1---1---3---4---0---1-|	CONTINUE PROGRESSION
|-^0---------0---4---0---0---0---0---4---0---0-|
|-^0---------0---4---2---2---2---0---4---2---2-|
|-^2---------2---2---2---3---3---2---2---2---3-|
|-^3---------3-------0-----------3-------0-----|

The spacing for guitar 2 and the guitar 1 below it are synced up.
  Gtr II
|-------------------------------|
|-------------------------------|
|-------------------------------|
|------------------2/------x----|				
|------------------2/------x----|				
|-------------------------------|
  

HERE!!!!
  Gtr I
|-0---0---2---3--------------3-------0---^-7---|
|-1---1---3---3--------------3---4---0---^-8---|
|-2---0---2---0--------------4---4---0---^-9---|
|-2---2---0---0--------------5---4---2---^10---|
|-0---3-------2--------------5---2---2---^-x---|
|-------------3--------------3-------0---^-8---|




|-3-------0---0---0---0---2---3--------------------|
|-3---4---0---1---1---1---3---3--3-----------------|
|-0---4---0---0---2---0---2---0--0--5----4----/11--|
|-0---4---2---2---2---2---0---0--0-----------------|
|-2---2---2---3---0---3-------2--x--3----2-----/9--|
|-3-------0-------------------3--2-----------------|



|------------------------------------------------------------|
|------------------------------------------------------------|
|-11-11--4-5---------------------------5----4----/11--11-11--|
|---------------7--7--7s9-9-9--5-5-5-------------------------|
|--9--9--2-3---------------------------3----2-----/9---9--9--|
|---------------5--5--5s7-7-7--3-3-3-------------------------|


				    Heavy distortion
|------------------------------------------------------|
|------------------------------------------------------|
|-4-5----4--4--4s=8-8-8S=11-11-11----5---------5-------|
|------------------------------------5----5----5----5--|
|-2-3----2--2--2s=6-6-6S==9--9--9----3----5----3----5--|
|------------------------------------3----3----3----3--|


|--------------------------^3----|
|--------------------------^3----|
|-5---------5----5--5--2---^0----|
|-5----5----5----5--5--2---^0----|
|-3----5----3----3--2--0---^2----|
|-3----3----3--------------^3----|

Some odd tremelo/echo effect

|------------------|
|-8/----15----8----|
|------------------|
|------------------|
|------------------|
|------------------| 
			

Pillows - Bran текст и слова песни

Еще песни

Песни Новое Избранное