Песня

				Intro: part 1
E --0-12--11--7--9--------7-------------0-12--11--7--9--------7--------|
B ------------------9--9-----9--------------------------9--9-----9-----|
G ---------------------------------------------------------------------|
D ---------------------------------------------------------------------|
A ---------------------------------------------------------------------|
E ---------------------------------------------------------------------|

*Wood Blocks/Clapping*

Intro: part 2 Repeat x2
E ---------7--7--14--11-11-11-----------7--7--11--7-7-7----------------|
B ---9--9-------------------------9--9---------------------------------|
G ---------------------------------------------------------------------|
D ---------------------------------------------------------------------|
A ---------------------------------------------------------------------|
E ---------------------------------------------------------------------|

E --------7--7--11--7-7-7---------------7--7--11--7-7-7----------------|
B --9--9--------------------------9--9---------------------------------|
G ---------------------------------------------------------------------|
D ---------------------------------------------------------------------|
A ---------------------------------------------------------------------|
E ---------------------------------------------------------------------| 
			

Imagine Dragons - Amsterdam текст и слова песни

Еще песни

Песни Новое Избранное