Delusional — Quicksand

︿
					
						 
   Verse					 Chorus let ring
[E-------------------------------------------------------------------
B-------------------------------------13---------------13-----------
G-------------------------------------12---------------12-----------
D-------------------------------------10---------------10-----------
A-------------------------------------10---------------10-----------
D----0--0--0--0--0--0--0//10----------10---------------10-----------]

Interlude
[E-----------------------8-------------------6--------------6--------
B--------------------7-------------------5--------------5-----------
G-----------------5-------------------3--------------3--------------
D----7--------------------------------------------------------------
A-------------------------------------------------------------------
D-------------------------------------------------------------------]

End Part
[E--------------------------------------
B-------3-----3---------2-----2--------
G----2-----2----2----2-----2----2------
D--------------------------------------
A--------------------------------------
D--------------------------------------]

Delusional
I'm not impressed
You want to tell me so bad
who is on your guest list tonight
but I don't care
Save it for
One of your
Other friends
or your many fans
Just think
solutional
we have a problem
we don't care who you know
it's too bad that you think so
next time you drop a name
Delusional
I'm not impressed
Illusional lies you tell best
and you want me to know
but I can't hear at all 
					

Quicksand - Delusional текст и слова песни

Еще песни

MyTexts