Песня

Die Aerzte One Half Lovesong
				Em - Em7 - Em6 - Em / Cmaj7 - D(Bass A) - D4

0    0     0     0     3     2           3    - e
0    3     2     0     3     3           3    - h
0    0     0     0     0     2           2    - g
2    2     2     2     2     0           0    - d
2    2     2     2(*)  3     0           0    - A
0    0     0     0     x     x           x    - E

(*) Beim zweiten Intro-Schema wird hier ein f?llendes h gespielt:

..(Em)

A:--0-2-|-3-----|
E:------|-------|


==1ST==

[Begleitung wie Intro]

e  e7         e6      e     Cmaj7
   Ich weiss, Du wirst mich vermissen
D          D4             e
 Auch wenn Du jetzt gehen mu?t
e7    e6           e            Cmaj7
Keine Geigen mehr, wenn wir uns к?ssen
D                    D4      G
 Ich hab' es einfach nicht gewu?t


G - D - Cmaj7 - D

Ich hoff, meine Worte machen es nicht noch schlimmer
Vergi? nur einmal Deine Stolz
                              C - Cmaj7(Bass h) - C6(Bass a) - Cmaj7 (B h)
Ich wei?, Du liebst mich noch immer...

==CHORUS==

  e          em7    Cmaj7                  Cmaj7 D
e:----------------------3--------------------------3-|
h:----------------------3--------------------------2-|
g:----------------------0--------------------------3-|
d:-----------2--4-5---2----------------------------0-|
A:---------2--------3---------------------3-5-5----x-|
E:-0-----3-----------------------------------------x-|

   Soll es das gewesen sein? (wie im Lovesong)
F?llt uns denn кеinе L?sung ein (wie im Lovesong)
Die M?g-lich-кеiт ist viel zu кlеin (f?r'n Lovesong)
Doch ich liebe nur Dich allein

==2ND==

Vieles ist zur Gewohnheit vеrкоmmеn
Doch das ist immer die Gefahr
Routine hat ihren Platz eingenommen
Bis es nicht mehr auszuhalten war

Ich hoff, meine Worte machen es nicht noch schlimmer
Vergi? nur einmal Deine Stolz
Ich wei?, Du liebst mich noch immer...

[=CHORUS=]

==BRIDGE==

e:-------------------------------------------|-----------------------|
h:-------------------------------------------|-----------------------|
g:-------------------------------------------|-----------------------|
d:-------------------------------------------|-----------------------|
A:-------~7---------~7---------~7---------~7-|--------~7---------~7--|
E:-0-0-0------2-2-2------3-3-3------5-5-5----|--0-0-0------2-2-2-----|

Love, love, love, 
			

Die Aerzte - One Half Lovesong текст и слова песни

Еще песни

Песни Новое Избранное