Песня

Queen Don`t Stop Me Now (tab)
				guitar solo
 E-----------------------------------------------------------------|
 B------------------------------------------------b12~-10----------|
 G-|-12b14---b14---r12p10-b14---b14---14r12p10-12-10-9-10-------------12-10----|
 D-----------------------------------------------------------------|
 A-----------------------------------------------------------------|
 E-----------------------------------------------------------------|
 
 E-----------------------------------------------------|
 B-|-------10------------------|-11b13---11p10-11b13-b13--13r11p10-11-10----10-|
 G-|-12b14----b14-b13-14r12----------------------------------12----|
 D--------------10-------------------------------------|
 A-----------------------------------------------------|
 E-----------------------------------------------------|
                  *
 E------------------------|
 B-|-11-10----------------------------|
 G-|-------12-10-|-12b14-12-14-12-14-12-14p12-10--|
 D------------------------|
 A------------------------|
 E------------------------|
 
 E-----------------------------------------------------|
 B-----------------------------------------------------|
 G-------------------------|--10h12p10-10-10h12p10-10-10h12p10-10~~|
 D-----------------------------------------------------|
 A-|-10-12p10-8---10/12-10h12p10h12--------------------------------|
 E---------------------10------------------------------|
 
 E--------------|-20-20-20-20-20-20-20-20-|
 B-|-b15-b15-b15-b15-b15~~~-|-22-22-22-22-22-22-22-22-|
 G----------------------------|
 D----------------------------|
 A----------------------------|
 E----------------------------|
 
 transcribed by dpinter@goliat.eik.bme.hu 
 1995 april
 * on the live killers version:
 --------------------------------------|
 |-13p10h13p10-------------------------------------|
 --12p10h12p10-12p10-----------12-10---|
 --------------------12---10-----------|
 --------------------------------------|
 --------------------------------------|
 
 
 PS:
 a little bit of JAZZ
 E-|->7-----------7--- 
			

Queen - Don`t Stop Me Now (tab) текст и слова песни

Еще песни

Песни Новое Избранное